  0
SECTION
  2
HEADER
  9
$ACADVER
  1
AC1015
  9
$ACADMAINTVER
 70
     6
  9
$DWGCODEPAGE
  3
DOS850
  9
$INSBASE
 10
0.0
 20
0.0
 30
0.0
  9
$EXTMIN
 10
-57.471071
 20
-61.413459
 30
0.0
  9
$EXTMAX
 10
167.74518
 20
54.644962
 30
0.0
  9
$LIMMIN
 10
0.0
 20
0.0
  9
$LIMMAX
 10
0.0
 20
0.0
  9
$ORTHOMODE
 70
     0
  9
$REGENMODE
 70
     1
  9
$FILLMODE
 70
     1
  9
$QTEXTMODE
 70
     0
  9
$MIRRTEXT
 70
     1
  9
$LTSCALE
 40
1.0
  9
$ATTMODE
 70
     1
  9
$TEXTSIZE
 40
0.2
  9
$TRACEWID
 40
0.05
  9
$TEXTSTYLE
  7
Standard
  9
$CLAYER
  8
0
  9
$CELTYPE
  6
Continuous
  9
$CECOLOR
 62
   256
  9
$CELTSCALE
 40
1.0
  9
$DISPSILH
 70
     0
  9
$DIMSCALE
 40
1.0
  9
$DIMASZ
 40
0.18
  9
$DIMEXO
 40
0.0625
  9
$DIMDLI
 40
0.38
  9
$DIMRND
 40
0.0
  9
$DIMDLE
 40
0.0
  9
$DIMEXE
 40
0.18
  9
$DIMTP
 40
0.0
  9
$DIMTM
 40
0.0
  9
$DIMTXT
 40
0.18
  9
$DIMCEN
 40
0.09
  9
$DIMTSZ
 40
0.0
  9
$DIMTOL
 70
     0
  9
$DIMLIM
 70
     0
  9
$DIMTIH
 70
     1
  9
$DIMTOH
 70
     1
  9
$DIMSE1
 70
     0
  9
$DIMSE2
 70
     0
  9
$DIMTAD
 70
     0
  9
$DIMZIN
 70
     0
  9
$DIMBLK
  1

  9
$DIMASO
 70
     1
  9
$DIMSHO
 70
     1
  9
$DIMPOST
  1

  9
$DIMAPOST
  1

  9
$DIMALT
 70
     0
  9
$DIMALTD
 70
     2
  9
$DIMALTF
 40
25.4
  9
$DIMLFAC
 40
1.0
  9
$DIMTOFL
 70
     0
  9
$DIMTVP
 40
0.0
  9
$DIMTIX
 70
     0
  9
$DIMSOXD
 70
     0
  9
$DIMSAH
 70
     0
  9
$DIMBLK1
  1

  9
$DIMBLK2
  1

  9
$DIMSTYLE
  2
Standard
  9
$DIMCLRD
 70
     0
  9
$DIMCLRE
 70
     0
  9
$DIMCLRT
 70
     0
  9
$DIMTFAC
 40
1.0
  9
$DIMGAP
 40
0.09
  9
$DIMJUST
 70
     0
  9
$DIMSD1
 70
     0
  9
$DIMSD2
 70
     0
  9
$DIMTOLJ
 70
     1
  9
$DIMTZIN
 70
     0
  9
$DIMALTZ
 70
     0
  9
$DIMALTTZ
 70
     0
  9
$DIMUPT
 70
     0
  9
$DIMDEC
 70
     4
  9
$DIMTDEC
 70
     4
  9
$DIMALTU
 70
     2
  9
$DIMALTTD
 70
     2
  9
$DIMTXSTY
  7
Standard
  9
$DIMAUNIT
 70
     0
  9
$DIMADEC
 70
     0
  9
$DIMALTRND
 40
0.0
  9
$DIMAZIN
 70
     0
  9
$DIMDSEP
 70
     0
  9
$DIMATFIT
 70
     3
  9
$DIMFRAC
 70
     0
  9
$DIMLDRBLK
  1

  9
$DIMLUNIT
 70
     2
  9
$DIMLWD
 70
     0
  9
$DIMLWE
 70
     0
  9
$DIMTMOVE
 70
     0
  9
$LUNITS
 70
     2
  9
$LUPREC
 70
     4
  9
$SKETCHINC
 40
0.1
  9
$FILLETRAD
 40
0.0
  9
$AUNITS
 70
     0
  9
$AUPREC
 70
     0
  9
$MENU
  1
acad
  9
$ELEVATION
 40
0.0
  9
$PELEVATION
 40
0.0
  9
$THICKNESS
 40
0.0
  9
$LIMCHECK
 70
     0
  9
$CHAMFERA
 40
0.0
  9
$CHAMFERB
 40
0.0
  9
$CHAMFERC
 40
0.0
  9
$CHAMFERD
 40
0.0
  9
$SKPOLY
 70
     0
  9
$TDCREATE
 40
0.000000000
  9
$TDUCREATE
 40
0.000000000
  9
$TDUPDATE
 40
0.000000000
  9
$TDUUPDATE
 40
0.000000000
  9
$TDINDWG
 40
0.0000000000
  9
$TDUSRTIMER
 40
0.0000000000
  9
$USRTIMER
 70
     1
  9
$ANGBASE
 50
0.0
  9
$ANGDIR
 70
     0
  9
$PDMODE
 70
     0
  9
$PDSIZE
 40
0.0
  9
$PLINEWID
 40
0.0
  9
$SPLFRAME
 70
     0
  9
$SPLINETYPE
 70
     6
  9
$SPLINESEGS
 70
     8
  9
$HANDSEED
  5
153
  9
$SURFTAB1
 70
     6
  9
$SURFTAB2
 70
     6
  9
$SURFTYPE
 70
     6
  9
$SURFU
 70
     6
  9
$SURFV
 70
     6
  9
$UCSBASE
  2

  9
$UCSNAME
  2

  9
$UCSORG
 10
0.0
 20
0.0
 30
0.0
  9
$UCSXDIR
 10
1.0
 20
0.0
 30
0.0
  9
$UCSYDIR
 10
0.0
 20
1.0
 30
0.0
  9
$UCSORTHOREF
  2

  9
$UCSORTHOVIEW
 70
     0
  9
$UCSORGTOP
 10
0.0
 20
0.0
 30
0.0
  9
$UCSORGBOTTOM
 10
0.0
 20
0.0
 30
0.0
  9
$UCSORGLEFT
 10
0.0
 20
0.0
 30
0.0
  9
$UCSORGRIGHT
 10
0.0
 20
0.0
 30
0.0
  9
$UCSORGFRONT
 10
0.0
 20
0.0
 30
0.0
  9
$UCSORGBACK
 10
0.0
 20
0.0
 30
0.0
  9
$PUCSBASE
  2

  9
$PUCSNAME
  2

  9
$PUCSORG
 10
0.0
 20
0.0
 30
0.0
  9
$PUCSXDIR
 10
1.0
 20
0.0
 30
0.0
  9
$PUCSYDIR
 10
0.0
 20
1.0
 30
0.0
  9
$PUCSORTHOREF
  2

  9
$PUCSORTHOVIEW
 70
     0
  9
$PUCSORGTOP
 10
0.0
 20
0.0
 30
0.0
  9
$PUCSORGBOTTOM
 10
0.0
 20
0.0
 30
0.0
  9
$PUCSORGLEFT
 10
0.0
 20
0.0
 30
0.0
  9
$PUCSORGRIGHT
 10
0.0
 20
0.0
 30
0.0
  9
$PUCSORGFRONT
 10
0.0
 20
0.0
 30
0.0
  9
$PUCSORGBACK
 10
0.0
 20
0.0
 30
0.0
  9
$USERI1
 70
     0
  9
$USERI2
 70
     0
  9
$USERI3
 70
     0
  9
$USERI4
 70
     0
  9
$USERI5
 70
     0
  9
$USERR1
 40
0.0
  9
$USERR2
 40
0.0
  9
$USERR3
 40
0.0
  9
$USERR4
 40
0.0
  9
$USERR5
 40
0.0
  9
$WORLDVIEW
 70
     1
  9
$SHADEDGE
 70
     3
  9
$SHADEDIF
 70
    70
  9
$TILEMODE
 70
     1
  9
$MAXACTVP
 70
    16
  9
$PINSBASE
 10
0.0
 20
0.0
 30
0.0
  9
$PLIMCHECK
 70
     0
  9
$PEXTMIN
 10
1.000000E+20
 20
1.000000E+20
 30
1.000000E+20
  9
$PEXTMAX
 10
-1.000000E+20
 20
-1.000000E+20
 30
-1.000000E+20
  9
$PLIMMIN
 10
0.0
 20
0.0
  9
$PLIMMAX
 10
12.0
 20
9.0
  9
$UNITMODE
 70
     0
  9
$VISRETAIN
 70
     0
  9
$PLINEGEN
 70
     1
  9
$PSLTSCALE
 70
     0
  9
$TREEDEPTH
 70
  3020
  9
$CMLSTYLE
  2
Standard
  9
$CMLJUST
 70
     0
  9
$CMLSCALE
 40
1.0
  9
$PROXYGRAPHICS
 70
     0
  9
$MEASUREMENT
 70
     0
  9
$CELWEIGHT
370
     0
  9
$ENDCAPS
280
     0
  9
$JOINSTYLE
280
     0
  9
$LWDISPLAY
290
     0
  9
$INSUNITS
 70
     0
  9
$HYPERLINKBASE
  1

  9
$XEDIT
290
     1
  9
$CEPSNTYPE
380
     0
  9
$PSTYLEMODE
290
     0
  9
$FINGERPRINTGUID
  2

  9
$VERSIONGUID
  2

  9
$EXTNAMES
290
     1
  9
$PSVPSCALE
 40
0.0
  0
ENDSEC
  0
SECTION
  2
CLASSES
  0
CLASS
  1
LWPOLYLINE
  2
AcDbPolyline
  3
"AutoCAD"
 90
        0
280
     0
281
     1
  0
CLASS
  1
IMAGE
  2
AcDbRasterImage
  3
ISM
 90
      127
280
     0
281
     1
  0
CLASS
  1
OLE2FRAME
  2
AcDbOle2Frame
  3
""
 90
        0
280
     0
281
     1
  0
CLASS
  1
HATCH
  2
AcDbHatch
  3
"ACAD_SEDONA"
 90
        0
280
     0
281
     1
  0
CLASS
  1
DICTIONARYVAR
  2
AcDbDictionaryVar
  3
"AutoCAD"
 90
        0
280
     0
281
     0
  0
CLASS
  1
RASTERVARIABLES
  2
AcDbRasterVariables
  3
ISM
 90
        0
280
     0
281
     0
  0
CLASS
  1
IMAGEDEF
  2
AcDbRasterImageDef
  3
ISM
 90
        0
280
     0
281
     0
  0
CLASS
  1
IMAGEDEF_REACTOR
  2
AcDbRasterImageDefReactor
  3
ISM
 90
        1
280
     0
281
     0
  0
CLASS
  1
IDBUFFER
  2
AcDbIdBuffer
  3
"Acad"
 90
        0
280
     0
281
     0
  0
CLASS
  1
SPATIAL_FILTER
  2
AcDbSpatialFilter
  3
"Acad"
 90
        0
280
     0
281
     0
  0
CLASS
  1
XRECORD
  2
AcDbXrecord
  3
"<Built In>"
 90
        0
280
     0
281
     0
  0
CLASS
  1
SORTENTSTABLE
  2
AcDbSortentsTable
  3
"AutoCAD"
 90
        0
280
     0
281
     0
  0
CLASS
  1
LAYER_INDEX
  2
AcDbLayerIndex
  3
"Acad"
 90
        0
280
     0
281
     0
  0
CLASS
  1
SPATIAL_INDEX
  2
AcDbSpatialIndex
  3
"Acad"
 90
        0
280
     0
281
     0
  0
CLASS
  1
OBJECT_PTR
  2
CAseDLPNTableRecord
  3
"ASE-LPNTableRecord"
 90
        1
280
     0
281
     0
  0
CLASS
  1
LAYOUT
  2
AcDbLayout
  3
"AutoCAD 2000"
 90
        1
280
     0
281
     0
  0
CLASS
  1
PLOTSETTINGS
  2
AcDbPlotSettings
  3
"AutoCAD 2000"
 90
        1
280
     0
281
     0
  0
CLASS
  1
ACDBDICTIONARYWDFLT
  2
AcDbDictionaryWithDefault
  3
"AutoCAD 2000"
 90
        1
280
     0
281
     0
  0
CLASS
  1
ACDBPLACEHOLDER
  2
AcDbPlaceHolder
  3
"AutoCAD 2000"
 90
        1
280
     0
281
     0
  0
CLASS
  1
VBA_PROJECT
  2
AcDbVbaProject
  3
"acadvba"
 90
        1
280
     0
281
     0
  0
CLASS
  1
WIPEOUT
  2
AcDbWipeout
  3
WipeOut|AutoCAD Express Tool|expresstools@autodesk.com
 90
      127
280
     0
281
     1
  0
CLASS
  1
WIPEOUTVARIABLES
  2
AcDbWipeoutVariables
  3
WipeOut|AutoCAD Express Tool|expresstools@autodesk.com
 90
        0
280
     0
281
     0
  0
CLASS
  1
RTEXT
  2
RText
  3
RText|AutoCAD Express Tool|expresstools@autodesk.com
 90
        0
280
     0
281
     1
  0
CLASS
  1
ARCALIGNEDTEXT
  2
AcDbArcAlignedText
  3
ATEXT|AutoCAD Express Tool|expresstools@autodesk.com
 90
        0
280
     0
281
     1
  0
ENDSEC
  0
SECTION
  2
TABLES
  0
TABLE
  2
VPORT
  5
7
100
AcDbSymbolTable
 70
     1
  0
VPORT
  5
15
100
AcDbSymbolTableRecord
100
AcDbViewportTableRecord
  2
*ACTIVE
 70
     0
 10
0.0
 20
0.0
 11
1.0
 21
1.0
 12
6.591288
 22
4.579184
 13
0.0
 23
0.0
 14
1.0
 24
1.0
 15
0.0
 25
0.0
 16
0.0
 26
0.0
 36
1.0
 17
0.0
 27
0.0
 37
0.0
 40
9.158369
 41
0.688564
 42
50.0
 43
0.0
 44
0.0
 50
0.0
 51
0.0
 71
     0
 72
   100
 73
     1
 74
     1
 75
     0
 76
     0
 77
     0
 78
     0
281
     0
 65
     0
110
0.0
120
0.0
130
0.0
111
1.0
121
0.0
131
0.0
112
0.0
122
1.0
132
0.0
345
0
346
0
 79
     0
146
0.0
  0
ENDTAB
  0
TABLE
  2
LTYPE
  5
4
100
AcDbSymbolTable
 70
     4
  0
LTYPE
  5
11
100
AcDbSymbolTableRecord
100
AcDbLinetypeTableRecord
  2
ByBlock
 70
    64
  3

 72
    65
 73
     0
 40
0.0
  0
LTYPE
  5
12
100
AcDbSymbolTableRecord
100
AcDbLinetypeTableRecord
  2
ByLayer
 70
    64
  3

 72
    65
 73
     0
 40
0.0
  0
LTYPE
  5
13
100
AcDbSymbolTableRecord
100
AcDbLinetypeTableRecord
  2
Continuous
 70
    64
  3
Solid line
 72
    65
 73
     0
 40
0.0
  0
LTYPE
  5
D7
100
AcDbSymbolTableRecord
100
AcDbLinetypeTableRecord
  2
ecw_4
 70
    64
  3
- -
 72
    65
 73
     5
 40
2.0
 49
0.625
 74
     0
 49
-0.25
 74
     0
 49
0.25
 74
     0
 49
-0.25
 74
     0
 49
0.625
 74
     0
  0
ENDTAB
  0
TABLE
  2
LAYER
  5
2
100
AcDbSymbolTable
 70
     7
  0
LAYER
  5
14
100
AcDbSymbolTableRecord
100
AcDbLayerTableRecord
  2
0
 70
     0
 62
     7
  6
Continuous
290
     1
370
    -3
390
1D
  0
LAYER
  5
24
100
AcDbSymbolTableRecord
100
AcDbLayerTableRecord
  2
MERGE
 70
     0
 62
     7
  6
Continuous
290
     1
370
    -3
390
1F
  0
LAYER
  5
25
100
AcDbSymbolTableRecord
100
AcDbLayerTableRecord
  2
STANDARD
 70
     0
 62
     7
  6
Continuous
290
     1
370
    -3
390
1F
  0
LAYER
  5
26
100
AcDbSymbolTableRecord
100
AcDbLayerTableRecord
  2
MITTEL
 70
     0
 62
    -7
  6
Continuous
290
     1
370
    -3
390
1F
  0
LAYER
  5
27
100
AcDbSymbolTableRecord
100
AcDbLayerTableRecord
  2
MASS
 70
     0
 62
    -7
  6
Continuous
290
     1
370
    -3
390
1F
  0
LAYER
  5
28
100
AcDbSymbolTableRecord
100
AcDbLayerTableRecord
  2
DEF
 70
     0
 62
     7
  6
Continuous
290
     1
370
    -3
390
1F
  0
LAYER
  5
29
100
AcDbSymbolTableRecord
100
AcDbLayerTableRecord
  2
Bem
 70
     0
 62
    -7
  6
Continuous
290
     1
370
    -3
390
1F
  0
ENDTAB
  0
TABLE
  2
STYLE
  5
3
100
AcDbSymbolTable
 70
     6
  0
STYLE
  5
17
100
AcDbSymbolTableRecord
100
AcDbTextStyleTableRecord
  2
Standard
 70
     0
 40
0.0
 41
1.0
 50
0.0
 71
     0
 42
0.0
  3
txt
  4

  0
STYLE
  5
2A
100
AcDbSymbolTableRecord
100
AcDbTextStyleTableRecord
  2
Style1
 70
     0
 40
0.0
 41
1.0
 50
0.0
 71
     0
 42
0.0
  3
Arial.ttf
  4

  0
STYLE
  5
2B
100
AcDbSymbolTableRecord
100
AcDbTextStyleTableRecord
  2
Style2
 70
     0
 40
0.0
 41
1.0
 50
0.0
 71
     0
 42
0.0
  3
txt.SHX
  4

  0
STYLE
  5
2C
100
AcDbSymbolTableRecord
100
AcDbTextStyleTableRecord
  2
Style3
 70
     0
 40
0.0
 41
1.0
 50
0.0
 71
     0
 42
0.0
  3
Arial.ttf
  4

  0
STYLE
  5
2D
100
AcDbSymbolTableRecord
100
AcDbTextStyleTableRecord
  2
Style4
 70
     0
 40
0.0
 41
1.0
 50
0.0
 71
     0
 42
0.0
  3
txt.SHX
  4

  0
STYLE
  5
2E
100
AcDbSymbolTableRecord
100
AcDbTextStyleTableRecord
  2
Style5
 70
     0
 40
0.0
 41
1.0
 50
0.0
 71
     0
 42
0.0
  3
Arial.ttf
  4

  0
ENDTAB
  0
TABLE
  2
VIEW
  5
5
100
AcDbSymbolTable
 70
     0
  0
ENDTAB
  0
TABLE
  2
UCS
  5
6
100
AcDbSymbolTable
 70
     0
  0
ENDTAB
  0
TABLE
  2
APPID
  5
8
100
AcDbSymbolTable
 70
     1
  0
APPID
  5
16
100
AcDbSymbolTableRecord
100
AcDbRegAppTableRecord
  2
ACAD
 70
     0
  0
ENDTAB
  0
TABLE
  2
DIMSTYLE
  5
9
100
AcDbSymbolTable
 70
     1
100
AcDbDimStyleTable
 71
     0
  0
DIMSTYLE
105
18
100
AcDbSymbolTableRecord
100
AcDbDimStyleTableRecord
  2
Standard
 70
     0
  3

  4

 40
1.0
 41
0.18
 42
0.0625
 43
0.38
 44
0.18
 45
0.0
 46
0.0
 47
0.0
 48
0.0
 71
     0
 72
     0
 73
     1
 74
     1
 75
     0
 76
     0
 77
     0
 78
     0
 79
     0
140
0.18
141
0.09
142
0.0
143
25.4
144
1.0
145
0.0
146
1.0
147
0.09
148
0.0
170
     0
171
     2
172
     0
173
     0
174
     0
175
     0
176
     0
177
     0
178
     0
179
     0
271
     4
272
     4
273
     2
274
     2
275
     0
276
     0
277
     2
278
    46
279
     0
280
     0
281
     0
282
     0
283
     1
284
     0
285
     0
286
     0
288
     0
340
17
341
0
342
0
343
0
344
0
371
    -2
372
    -2
  0
ENDTAB
  0
TABLE
  2
BLOCK_RECORD
  5
1
100
AcDbSymbolTable
 70
     1
  0
BLOCK_RECORD
  5
A
100
AcDbSymbolTableRecord
100
AcDbBlockTableRecord
  2
*MODEL_SPACE
340
20
  0
BLOCK_RECORD
  5
B
100
AcDbSymbolTableRecord
100
AcDbBlockTableRecord
  2
*PAPER_SPACE
340
21
  0
BLOCK_RECORD
  5
2F
100
AcDbSymbolTableRecord
100
AcDbBlockTableRecord
  2
GC
340
0
  0
ENDTAB
  0
ENDSEC
  0
SECTION
  2
BLOCKS
  0
BLOCK
  5
D
100
AcDbEntity
  8
0
100
AcDbBlockBegin
  2
*MODEL_SPACE
 70
     0
 10
0.0
 20
0.0
 30
0.0
  3
*MODEL_SPACE
  1

  0
ENDBLK
  5
E
100
AcDbEntity
  8
0
100
AcDbBlockEnd
  0
BLOCK
  5
F
100
AcDbEntity
 67
     1
  8
0
100
AcDbBlockBegin
  2
*PAPER_SPACE
 70
     0
 10
0.0
 20
0.0
 30
0.0
  3
*PAPER_SPACE
  1

  0
ENDBLK
  5
10
100
AcDbEntity
 67
     1
  8
0
100
AcDbBlockEnd
  0
BLOCK
  5
30
100
AcDbEntity
  8
0
 62
     1
100
AcDbBlockBegin
  2
GC
 70
     0
 10
0.0
 20
0.0
 30
0.0
  3
GC
  1

  0
LINE
  5
31
100
AcDbEntity
  8
0
 62
     1
100
AcDbLine
 10
0.0
 20
-0.095
 30
0.0
 11
0.0
 21
0.0
 31
0.0
  0
POLYLINE
  5
32
100
AcDbEntity
  8
0
 62
     1
100
AcDb2dPolyline
 66
     1
 10
0.0
 20
0.0
 30
0.0
 70
     1
  0
VERTEX
  5
33
100
AcDbEntity
  8
0
 62
     1
100
AcDbVertex
100
AcDb2dVertex
 10
-0.267654
 20
-0.25
 30
0.0
  0
VERTEX
  5
34
100
AcDbEntity
  8
0
 62
     1
100
AcDbVertex
100
AcDb2dVertex
 10
-0.228904
 20
-0.095
 30
0.0
  0
VERTEX
  5
35
100
AcDbEntity
  8
0
 62
     1
100
AcDbVertex
100
AcDb2dVertex
 10
0.231404
 20
-0.095
 30
0.0
  0
VERTEX
  5
36
100
AcDbEntity
  8
0
 62
     1
100
AcDbVertex
100
AcDb2dVertex
 10
0.192654
 20
-0.25
 30
0.0
  0
VERTEX
  5
37
100
AcDbEntity
  8
0
 62
     1
100
AcDbVertex
100
AcDb2dVertex
 10
0.182346
 20
-0.25
 30
0.0
  0
VERTEX
  5
38
100
AcDbEntity
  8
0
 62
     1
100
AcDbVertex
100
AcDb2dVertex
 10
0.218596
 20
-0.105
 30
0.0
  0
VERTEX
  5
39
100
AcDbEntity
  8
0
 62
     1
100
AcDbVertex
100
AcDb2dVertex
 10
0.078904
 20
-0.105
 30
0.0
  0
VERTEX
  5
3A
100
AcDbEntity
  8
0
 62
     1
100
AcDbVertex
100
AcDb2dVertex
 10
0.042654
 20
-0.25
 30
0.0
  0
VERTEX
  5
3B
100
AcDbEntity
  8
0
 62
     1
100
AcDbVertex
100
AcDb2dVertex
 10
0.032346
 20
-0.25
 30
0.0
  0
VERTEX
  5
3C
100
AcDbEntity
  8
0
 62
     1
100
AcDbVertex
100
AcDb2dVertex
 10
0.068596
 20
-0.105
 30
0.0
  0
VERTEX
  5
3D
100
AcDbEntity
  8
0
 62
     1
100
AcDbVertex
100
AcDb2dVertex
 10
-0.071096
 20
-0.105
 30
0.0
  0
VERTEX
  5
3E
100
AcDbEntity
  8
0
 62
     1
100
AcDbVertex
100
AcDb2dVertex
 10
-0.107346
 20
-0.25
 30
0.0
  0
VERTEX
  5
3F
100
AcDbEntity
  8
0
 62
     1
100
AcDbVertex
100
AcDb2dVertex
 10
-0.117654
 20
-0.25
 30
0.0
  0
VERTEX
  5
40
100
AcDbEntity
  8
0
 62
     1
100
AcDbVertex
100
AcDb2dVertex
 10
-0.081404
 20
-0.105
 30
0.0
  0
VERTEX
  5
41
100
AcDbEntity
  8
0
 62
     1
100
AcDbVertex
100
AcDb2dVertex
 10
-0.221096
 20
-0.105
 30
0.0
  0
VERTEX
  5
42
100
AcDbEntity
  8
0
 62
     1
100
AcDbVertex
100
AcDb2dVertex
 10
-0.257346
 20
-0.25
 30
0.0
  0
SEQEND
  5
43
100
AcDbEntity
  8
0
  0
ENDBLK
  5
44
100
AcDbEntity
  8
0
 62
     1
100
AcDbBlockEnd
  0
ENDSEC
  0
SECTION
  2
ENTITIES
  0
LINE
  5
45
100
AcDbEntity
  8
0
 62
     1
100
AcDbLine
 10
-33.619278
 20
53.479008
 30
0.0
 11
-31.75946
 21
53.479008
 31
0.0
  0
POLYLINE
  5
46
100
AcDbEntity
  8
0
 62
     7
100
AcDb2dPolyline
 66
     1
 10
0.0
 20
0.0
 30
0.0
 70
     1
  0
VERTEX
  5
47
100
AcDbEntity
  8
0
 62
     7
100
AcDbVertex
100
AcDb2dVertex
 10
-33.619278
 20
15.003264
 30
0.0
  0
VERTEX
  5
48
100
AcDbEntity
  8
0
 62
     7
100
AcDbVertex
100
AcDb2dVertex
 10
-33.619278
 20
53.479008
 30
0.0
  0
VERTEX
  5
49
100
AcDbEntity
  8
0
 62
     7
100
AcDbVertex
100
AcDb2dVertex
 10
-31.75946
 20
53.479008
 30
0.0
  0
VERTEX
  5
4A
100
AcDbEntity
  8
0
 62
     7
100
AcDbVertex
100
AcDb2dVertex
 10
-31.619278
 20
52.718628
 30
0.0
  0
VERTEX
  5
4B
100
AcDbEntity
  8
0
 62
     7
100
AcDbVertex
100
AcDb2dVertex
 10
-31.619278
 20
15.003263
 30
0.0
  0
SEQEND
  5
4C
100
AcDbEntity
  8
0
  0
POLYLINE
  5
4D
100
AcDbEntity
  8
0
 62
     7
100
AcDb2dPolyline
 66
     1
 10
0.0
 20
0.0
 30
0.0
 70
     1
  0
VERTEX
  5
4E
100
AcDbEntity
  8
0
 62
     7
100
AcDbVertex
100
AcDb2dVertex
 10
-33.618313
 20
-15.006186
 30
0.0
  0
VERTEX
  5
4F
100
AcDbEntity
  8
0
 62
     7
100
AcDbVertex
100
AcDb2dVertex
 10
-33.615841
 20
-53.48193
 30
0.0
  0
VERTEX
  5
50
100
AcDbEntity
  8
0
 62
     7
100
AcDbVertex
100
AcDb2dVertex
 10
-31.756023
 20
-53.481812
 30
0.0
  0
VERTEX
  5
51
100
AcDbEntity
  8
0
 62
     7
100
AcDbVertex
100
AcDb2dVertex
 10
-31.615891
 20
-52.72142
 30
0.0
  0
VERTEX
  5
52
100
AcDbEntity
  8
0
 62
     7
100
AcDbVertex
100
AcDb2dVertex
 10
-31.618313
 20
-15.006057
 30
0.0
  0
SEQEND
  5
53
100
AcDbEntity
  8
0
  0
LINE
  5
54
100
AcDbEntity
  8
0
 62
     7
100
AcDbLine
 10
145.825394
 20
29.499756
 30
0.0
 11
145.825317
 21
31.499786
 31
0.0
  0
LINE
  5
55
100
AcDbEntity
  8
0
 62
     7
100
AcDbLine
 10
145.325317
 20
31.999756
 30
0.0
 11
145.825317
 21
31.499786
 31
0.0
  0
LINE
  5
56
100
AcDbEntity
  8
0
 62
     7
100
AcDbLine
 10
145.825394
 20
29.499752
 30
0.0
 11
145.825394
 21
-0.0002
 31
0.0
  0
LINE
  5
57
100
AcDbEntity
  8
0
 62
     7
100
AcDbLine
 10
145.325317
 20
31.999756
 30
0.0
 11
36.675781
 21
31.997509
 31
0.0
  0
ARC
  5
58
100
AcDbEntity
  8
0
 62
     7
100
AcDbCircle
 10
36.675842
 20
29.997509
 30
0.0
 40
2.0
100
AcDbArc
 50
90.001881
 51
162.464369
  0
ARC
  5
59
100
AcDbEntity
  8
0
 62
     7
100
AcDbCircle
 10
0.0
 20
0.0
 30
0.0
 40
25.0
100
AcDbArc
 50
26.660499
 51
76.215547
  0
LINE
  5
5A
100
AcDbEntity
  8
0
 62
     7
100
AcDbLine
 10
34.768784
 20
30.600105
 30
0.0
 11
28.807266
 21
11.733492
 31
0.0
  0
ARC
  5
5B
100
AcDbEntity
  8
0
 62
     7
100
AcDbCircle
 10
25.469912
 20
12.788038
 30
0.0
 40
3.5
100
AcDbArc
 50
206.660501
 51
342.464374
  0
LINE
  5
5C
100
AcDbEntity
  8
0
 62
     7
100
AcDbLine
 10
145.824478
 20
28.749754
 30
0.0
 11
145.825394
 21
-0.0002
 31
0.0
  0
LINE
  5
5D
100
AcDbEntity
  8
0
 62
     7
100
AcDbLine
 10
-23.696661
 20
32.00013
 30
0.0
 11
-13.684332
 21
32.00013
 31
0.0
  0
LINE
  5
5E
100
AcDbEntity
  8
0
 62
     7
100
AcDbLine
 10
-27.946663
 20
30.25013
 30
0.0
 11
-27.446663
 21
30.75013
 31
0.0
  0
LINE
  5
5F
100
AcDbEntity
  8
0
 62
     7
100
AcDbLine
 10
-27.946663
 20
28.512266
 30
0.0
 11
-27.946663
 21
30.25013
 31
0.0
  0
LINE
  5
60
100
AcDbEntity
  8
0
 62
     7
100
AcDbLine
 10
-25.360861
 20
30.75013
 30
0.0
 11
-27.446663
 21
30.75013
 31
0.0
  0
LINE
  5
61
100
AcDbEntity
  8
0
 62
     7
100
AcDbLine
 10
-24.653753
 20
31.043037
 30
0.0
 11
-23.696661
 21
32.00013
 31
0.0
  0
ARC
  5
62
100
AcDbEntity
  8
0
 62
     7
100
AcDbCircle
 10
-25.360861
 20
31.75013
 30
0.0
 40
1.0
100
AcDbArc
 50
270.000001
 51
315.000309
  0
LINE
  5
63
100
AcDbEntity
  8
0
 62
     7
100
AcDbLine
 10
-12.727224
 20
31.043037
 30
0.0
 11
-13.684332
 21
32.00013
 31
0.0
  0
ARC
  5
64
100
AcDbEntity
  8
0
 62
     7
100
AcDbCircle
 10
-12.020132
 20
31.75013
 30
0.0
 40
1.0
100
AcDbArc
 50
225.000624
 51
270.000001
  0
LINE
  5
65
100
AcDbEntity
  8
0
 62
     7
100
AcDbLine
 10
-8.313041
 20
31.043037
 30
0.0
 11
-7.355933
 21
32.00013
 31
0.0
  0
ARC
  5
66
100
AcDbEntity
  8
0
 62
     7
100
AcDbCircle
 10
-9.020133
 20
31.75013
 30
0.0
 40
1.0
100
AcDbArc
 50
270.000001
 51
314.999377
  0
LINE
  5
67
100
AcDbEntity
  8
0
 62
     7
100
AcDbLine
 10
4.956751
 20
32.00013
 30
0.0
 11
-7.355933
 21
32.00013
 31
0.0
  0
LINE
  5
68
100
AcDbEntity
  8
0
 62
     7
100
AcDbLine
 10
5.956751
 20
25.278011
 30
0.0
 11
5.956751
 21
31.00013
 31
0.0
  0
ARC
  5
69
100
AcDbEntity
  8
0
 62
     7
100
AcDbCircle
 10
4.956751
 20
31.00013
 30
0.0
 40
1.0
100
AcDbArc
 50
0.000003
 51
90.000006
  0
LINE
  5
6A
100
AcDbEntity
  8
0
 62
     7
100
AcDbLine
 10
-12.020132
 20
30.75013
 30
0.0
 11
-9.020133
 21
30.75013
 31
0.0
  0
LINE
  5
6B
100
AcDbEntity
  8
0
 62
     7
100
AcDbLine
 10
-31.619278
 20
21.417295
 30
0.0
 11
-31.619278
 21
15.003263
 31
0.0
  0
LINE
  5
6C
100
AcDbEntity
  8
0
 62
     7
100
AcDbLine
 10
-39.619263
 20
14.003263
 30
0.0
 11
-39.619263
 21
13.503233
 31
0.0
  0
LINE
  5
6D
100
AcDbEntity
  8
0
 62
     7
100
AcDbLine
 10
-39.619831
 20
-0.001654
 30
0.0
 11
-39.619263
 21
14.003263
 31
0.0
  0
LINE
  5
6E
100
AcDbEntity
  8
0
 62
     7
100
AcDbLine
 10
-33.619278
 20
15.003264
 30
0.0
 11
-33.619278
 21
53.479008
 31
0.0
  0
LINE
  5
6F
100
AcDbEntity
  8
0
 62
     7
100
AcDbLine
 10
-31.619278
 20
21.417295
 30
0.0
 11
-31.619278
 21
28.012266
 31
0.0
  0
LINE
  5
70
100
AcDbEntity
  8
0
 62
     7
100
AcDbLine
 10
-31.619278
 20
28.012266
 30
0.0
 11
-31.119278
 21
28.512266
 31
0.0
  0
LINE
  5
71
100
AcDbEntity
  8
0
 62
     7
100
AcDbLine
 10
-39.62133
 20
14.253263
 30
0.0
 11
-41.369251
 21
14.253263
 31
0.0
  0
LINE
  5
72
100
AcDbEntity
  8
0
 62
     7
100
AcDbLine
 10
145.827301
 20
-29.49367
 30
0.0
 11
145.827362
 21
-31.4937
 31
0.0
  0
LINE
  5
73
100
AcDbEntity
  8
0
 62
     7
100
AcDbLine
 10
145.327393
 20
-31.993702
 30
0.0
 11
145.827362
 21
-31.4937
 31
0.0
  0
LINE
  5
74
100
AcDbEntity
  8
0
 62
     7
100
AcDbLine
 10
145.827301
 20
-29.493666
 30
0.0
 11
145.825394
 21
0.006286
 31
0.0
  0
LINE
  5
75
100
AcDbEntity
  8
0
 62
     7
100
AcDbLine
 10
145.327393
 20
-31.993702
 30
0.0
 11
36.677849
 21
-31.99589
 31
0.0
  0
ARC
  5
76
100
AcDbEntity
  8
0
 62
     7
100
AcDbCircle
 10
36.67778
 20
-29.99589
 30
0.0
 40
2.0
100
AcDbArc
 50
197.53933
 51
270.001818
  0
ARC
  5
77
100
AcDbEntity
  8
0
 62
     7
100
AcDbCircle
 10
0.0
 20
-0.00075
 30
0.0
 40
25.0
100
AcDbArc
 50
283.78447
 51
333.343209
  0
ARC
  5
78
100
AcDbEntity
  8
0
 62
     7
100
AcDbCircle
 10
25.470737
 20
-12.787143
 30
0.0
 40
3.5
100
AcDbArc
 50
17.539328
 51
153.343201
  0
LINE
  5
79
100
AcDbEntity
  8
0
 62
     7
100
AcDbLine
 10
145.826324
 20
-28.743668
 30
0.0
 11
145.825394
 21
0.006286
 31
0.0
  0
LINE
  5
7A
100
AcDbEntity
  8
0
 62
     7
100
AcDbLine
 10
-8.311035
 20
-31.044325
 30
0.0
 11
-7.353866
 21
-32.001354
 31
0.0
  0
ARC
  5
7B
100
AcDbEntity
  8
0
 62
     7
100
AcDbCircle
 10
-9.018082
 20
-31.751463
 30
0.0
 40
1.0
100
AcDbArc
 50
45.004325
 51
90.003701
  0
LINE
  5
7C
100
AcDbEntity
  8
0
 62
     7
100
AcDbLine
 10
4.958818
 20
-32.000561
 30
0.0
 11
-7.353866
 21
-32.001354
 31
0.0
  0
LINE
  5
7D
100
AcDbEntity
  8
0
 62
     7
100
AcDbLine
 10
5.958319
 20
-24.280338
 30
0.0
 11
5.958754
 21
-31.000494
 31
0.0
  0
ARC
  5
7E
100
AcDbEntity
  8
0
 62
     7
100
AcDbCircle
 10
4.958754
 20
-31.000559
 30
0.0
 40
1.0
100
AcDbArc
 50
270.003689
 51
360.003691
  0
LINE
  5
7F
100
AcDbEntity
  8
0
 62
     7
100
AcDbLine
 10
-31.617895
 20
-21.420088
 30
0.0
 11
-31.618309
 21
-15.006056
 31
0.0
  0
LINE
  5
80
100
AcDbEntity
  8
0
 62
     7
100
AcDbLine
 10
-39.618359
 20
-14.006573
 30
0.0
 11
-39.618389
 21
-13.506542
 31
0.0
  0
LINE
  5
81
100
AcDbEntity
  8
0
 62
     7
100
AcDbLine
 10
-39.619831
 20
-0.001655
 30
0.0
 11
-39.618359
 21
-14.006573
 31
0.0
  0
LINE
  5
82
100
AcDbEntity
  8
0
 62
     7
100
AcDbLine
 10
-31.617895
 20
-21.420088
 30
0.0
 11
-31.617468
 21
-28.015059
 31
0.0
  0
LINE
  5
83
100
AcDbEntity
  8
0
 62
     7
100
AcDbLine
 10
-31.617468
 20
-28.015059
 30
0.0
 11
-31.117435
 21
-28.515026
 31
0.0
  0
LINE
  5
84
100
AcDbEntity
  8
0
 62
     7
100
AcDbLine
 10
-39.618332
 20
-14.256573
 30
0.0
 11
-41.370411
 21
-14.256686
 31
0.0
  0
LINE
  5
85
100
AcDbEntity
  8
0
 62
     7
100
AcDbLine
 10
-31.619278
 20
28.012266
 30
0.0
 11
-31.619278
 21
52.718628
 31
0.0
  0
LINE
  5
86
100
AcDbEntity
  8
0
 62
     1
100
AcDbLine
 10
-35.730343
 20
54.070415
 30
0.0
 11
-33.619278
 21
53.479008
 31
0.0
  0
LINE
  5
87
100
AcDbEntity
  8
0
 62
     1
100
AcDbLine
 10
-31.75946
 20
53.479008
 30
0.0
 11
-31.619278
 21
52.718628
 31
0.0
  0
LINE
  5
88
100
AcDbEntity
  8
0
 62
     1
100
AcDbLine
 10
-31.619278
 20
52.718628
 30
0.0
 11
-29.309343
 21
52.718628
 31
0.0
  0
LINE
  5
89
100
AcDbEntity
  8
0
 62
     7
100
AcDbLine
 10
-33.612984
 20
-15.004055
 30
0.0
 11
-33.596832
 21
-53.479797
 31
0.0
  0
LINE
  5
8A
100
AcDbEntity
  8
0
 62
     7
100
AcDbLine
 10
-31.607523
 20
-28.012217
 30
0.0
 11
-31.597153
 21
-52.718578
 31
0.0
  0
LINE
  5
8B
100
AcDbEntity
  8
0
 62
     7
100
AcDbLine
 10
145.3246
 20
-32.00045
 30
0.0
 11
36.67506
 21
-31.996656
 31
0.0
  0
ARC
  5
8C
100
AcDbEntity
  8
0
 62
     7
100
AcDbCircle
 10
36.675167
 20
-29.996656
 30
0.0
 40
2.0
100
AcDbArc
 50
197.534344
 51
269.996831
  0
LINE
  5
8D
100
AcDbEntity
  8
0
 62
     7
100
AcDbLine
 10
34.768093
 20
-30.599209
 30
0.0
 11
28.807001
 21
-11.732461
 31
0.0
  0
LINE
  5
8E
100
AcDbEntity
  8
0
 62
     7
100
AcDbLine
 10
145.327393
 20
-31.993702
 30
0.0
 11
145.325317
 21
31.999756
 31
0.0
  0
LINE
  5
8F
100
AcDbEntity
  8
0
 62
     7
100
AcDbLine
 10
-31.119278
 20
28.512266
 30
0.0
 11
-27.946663
 21
28.512266
 31
0.0
  0
LINE
  5
90
100
AcDbEntity
  8
0
 62
     7
100
AcDbLine
 10
-23.696661
 20
-32.003437
 30
0.0
 11
-13.684332
 21
-32.003437
 31
0.0
  0
LINE
  5
91
100
AcDbEntity
  8
0
 62
     7
100
AcDbLine
 10
-27.946663
 20
-30.253437
 30
0.0
 11
-27.446663
 21
-30.753437
 31
0.0
  0
LINE
  5
92
100
AcDbEntity
  8
0
 62
     7
100
AcDbLine
 10
-27.946663
 20
-28.515574
 30
0.0
 11
-27.946663
 21
-30.253437
 31
0.0
  0
LINE
  5
93
100
AcDbEntity
  8
0
 62
     7
100
AcDbLine
 10
-25.360861
 20
-30.753437
 30
0.0
 11
-27.446663
 21
-30.753437
 31
0.0
  0
LINE
  5
94
100
AcDbEntity
  8
0
 62
     7
100
AcDbLine
 10
-24.653753
 20
-31.046345
 30
0.0
 11
-23.696661
 21
-32.003437
 31
0.0
  0
ARC
  5
95
100
AcDbEntity
  8
0
 62
     7
100
AcDbCircle
 10
-25.360861
 20
-31.753437
 30
0.0
 40
1.0
100
AcDbArc
 50
44.99969
 51
89.999999
  0
LINE
  5
96
100
AcDbEntity
  8
0
 62
     7
100
AcDbLine
 10
-31.119278
 20
-28.515574
 30
0.0
 11
-27.946663
 21
-28.515574
 31
0.0
  0
LINE
  5
97
100
AcDbEntity
  8
0
 62
     7
100
AcDbLine
 10
-23.696661
 20
-32.003437
 30
0.0
 11
-13.684332
 21
-32.003437
 31
0.0
  0
LINE
  5
98
100
AcDbEntity
  8
0
 62
     7
100
AcDbLine
 10
-12.727224
 20
-31.046345
 30
0.0
 11
-13.684332
 21
-32.003437
 31
0.0
  0
ARC
  5
99
100
AcDbEntity
  8
0
 62
     7
100
AcDbCircle
 10
-12.020132
 20
-31.753437
 30
0.0
 40
1.0
100
AcDbArc
 50
90.000003
 51
134.999379
  0
LINE
  5
9A
100
AcDbEntity
  8
0
 62
     7
100
AcDbLine
 10
-12.020132
 20
-30.753437
 30
0.0
 11
-9.020133
 21
-30.753437
 31
0.0
  0
LINE
  5
9B
100
AcDbEntity
  8
0
 62
     7
100
AcDbLine
 10
28.807266
 20
11.733492
 30
0.0
 11
28.808023
 21
-11.732382
 31
0.0
  0
LINE
  5
9C
100
AcDbEntity
  8
0
 62
     7
100
AcDbLine
 10
22.342028
 20
11.217578
 30
0.0
 11
22.342752
 21
-11.216884
 31
0.0
  0
LINE
  5
9D
100
AcDbEntity
  8
0
 62
     7
100
AcDbLine
 10
5.95675
 20
25.278011
 30
0.0
 11
5.956756
 21
-24.280722
 31
0.0
  0
LINE
  5
9E
100
AcDbEntity
  8
0
 62
     7
100
AcDbLine
 10
-7.355933
 20
32.00013
 30
0.0
 11
-7.353866
 21
-32.001354
 31
0.0
  0
LINE
  5
9F
100
AcDbEntity
  8
0
 62
     7
100
AcDbLine
 10
-9.018147
 20
-30.751463
 30
0.0
 11
-9.020133
 21
30.75013
 31
0.0
  0
LINE
  5
A0
100
AcDbEntity
  8
0
 62
     7
100
AcDbLine
 10
-12.020132
 20
30.75013
 30
0.0
 11
-12.020132
 21
-0.001654
 31
0.0
  0
LINE
  5
A1
100
AcDbEntity
  8
0
 62
     7
100
AcDbLine
 10
-13.684332
 20
2.289342
 30
0.0
 11
-13.684332
 21
-0.001654
 31
0.0
  0
LINE
  5
A2
100
AcDbEntity
  8
0
 62
     7
100
AcDbLine
 10
-13.684332
 20
14.297497
 30
0.0
 11
-13.684332
 21
10.210185
 31
0.0
  0
LINE
  5
A3
100
AcDbEntity
  8
0
 62
     7
100
AcDbLine
 10
-13.684332
 20
24.12874
 30
0.0
 11
-13.684332
 21
21.029875
 31
0.0
  0
LINE
  5
A4
100
AcDbEntity
  8
0
 62
     7
100
AcDbLine
 10
-13.684332
 20
32.00013
 30
0.0
 11
-13.684332
 21
28.730972
 31
0.0
  0
LINE
  5
A5
100
AcDbEntity
  8
0
 62
     7
100
AcDbLine
 10
-23.696661
 20
2.289342
 30
0.0
 11
-23.696661
 21
-0.001654
 31
0.0
  0
LINE
  5
A6
100
AcDbEntity
  8
0
 62
     7
100
AcDbLine
 10
-23.696661
 20
14.297497
 30
0.0
 11
-23.696661
 21
10.210185
 31
0.0
  0
LINE
  5
A7
100
AcDbEntity
  8
0
 62
     7
100
AcDbLine
 10
-23.696661
 20
24.12874
 30
0.0
 11
-23.696661
 21
21.029875
 31
0.0
  0
LINE
  5
A8
100
AcDbEntity
  8
0
 62
     7
100
AcDbLine
 10
-23.696661
 20
32.00013
 30
0.0
 11
-23.696661
 21
28.730972
 31
0.0
  0
LINE
  5
A9
100
AcDbEntity
  8
0
 62
     7
100
AcDbLine
 10
-25.360861
 20
-0.001654
 30
0.0
 11
-25.360861
 21
30.75013
 31
0.0
  0
LINE
  5
AA
100
AcDbEntity
  8
0
 62
     7
100
AcDbLine
 10
-27.446663
 20
30.75013
 30
0.0
 11
-27.446663
 21
-30.753437
 31
0.0
  0
LINE
  5
AB
100
AcDbEntity
  8
0
 62
     7
100
AcDbLine
 10
-27.946663
 20
-28.515574
 30
0.0
 11
-27.946663
 21
28.512266
 31
0.0
  0
LINE
  5
AC
100
AcDbEntity
  8
0
 62
     7
100
AcDbLine
 10
-31.619278
 20
15.003263
 30
0.0
 11
-31.618313
 21
-15.006057
 31
0.0
  0
LINE
  5
AD
100
AcDbEntity
  8
0
 62
     7
100
AcDbLine
 10
34.768784
 20
30.600107
 30
0.0
 11
34.768093
 21
-30.599209
 31
0.0
  0
LINE
  5
AE
100
AcDbEntity
  8
0
 62
     7
100
AcDbLine
 10
36.677849
 20
-31.99589
 30
0.0
 11
36.675781
 21
31.997509
 31
0.0
  0
LINE
  5
AF
100
AcDbEntity
  8
0
 62
     1
100
AcDbLine
 10
-35.730343
 20
-54.073723
 30
0.0
 11
-33.619278
 21
-53.482315
 31
0.0
  0
LINE
  5
B0
100
AcDbEntity
  8
0
 62
     1
100
AcDbLine
 10
-31.75946
 20
-53.482315
 30
0.0
 11
-31.619278
 21
-52.721935
 31
0.0
  0
LINE
  5
B1
100
AcDbEntity
  8
0
 62
     1
100
AcDbLine
 10
-31.619278
 20
-52.721935
 30
0.0
 11
-29.309343
 21
-52.721935
 31
0.0
  0
LINE
  5
B2
100
AcDbEntity
  8
0
 62
     7
100
AcDbLine
 10
-13.684332
 20
30.276232
 30
0.0
 11
-23.696661
 21
30.276232
 31
0.0
  0
LINE
  5
B3
100
AcDbEntity
  8
0
 62
     7
100
AcDbLine
 10
-13.684332
 20
28.730972
 30
0.0
 11
-23.696661
 21
28.730972
 31
0.0
  0
LINE
  5
B4
100
AcDbEntity
  8
0
 62
     7
100
AcDbLine
 10
-13.684332
 20
24.12874
 30
0.0
 11
-23.696661
 21
24.12874
 31
0.0
  0
LINE
  5
B5
100
AcDbEntity
  8
0
 62
     7
100
AcDbLine
 10
-13.684332
 20
21.029875
 30
0.0
 11
-23.696661
 21
21.029875
 31
0.0
  0
LINE
  5
B6
100
AcDbEntity
  8
0
 62
     7
100
AcDbLine
 10
-13.684332
 20
14.297497
 30
0.0
 11
-23.696661
 21
14.297497
 31
0.0
  0
LINE
  5
B7
100
AcDbEntity
  8
0
 62
     7
100
AcDbLine
 10
-13.684332
 20
10.210185
 30
0.0
 11
-23.696661
 21
10.210185
 31
0.0
  0
LINE
  5
B8
100
AcDbEntity
  8
0
 62
     7
100
AcDbLine
 10
-13.684332
 20
2.289342
 30
0.0
 11
-23.696661
 21
2.289342
 31
0.0
  0
ARC
  5
B9
100
AcDbEntity
  8
0
 62
     7
100
AcDbCircle
 10
-21.869604
 20
26.429857
 30
0.0
 40
2.938242
100
AcDbArc
 50
488.449121
 51
591.550861
  0
ARC
  5
BA
100
AcDbEntity
  8
0
 62
     7
100
AcDbCircle
 10
-19.708479
 20
17.663687
 30
0.0
 40
5.218892
100
AcDbArc
 50
139.834272
 51
220.165745
  0
ARC
  5
BB
100
AcDbEntity
  8
0
 62
     7
100
AcDbCircle
 10
-20.172972
 20
6.249763
 30
0.0
 40
5.301068
100
AcDbArc
 50
491.660294
 51
588.339668
  0
ARC
  5
BC
100
AcDbEntity
  8
0
 62
     7
100
AcDbCircle
 10
-15.51139
 20
26.429857
 30
0.0
 40
2.938242
100
AcDbArc
 50
308.44913
 51
411.55087
  0
ARC
  5
BD
100
AcDbEntity
  8
0
 62
     7
100
AcDbCircle
 10
-17.672514
 20
17.663687
 30
0.0
 40
5.218892
100
AcDbArc
 50
319.834263
 51
400.165737
  0
ARC
  5
BE
100
AcDbEntity
  8
0
 62
     7
100
AcDbCircle
 10
-17.208021
 20
6.249764
 30
0.0
 40
5.301068
100
AcDbArc
 50
311.66033
 51
408.339704
  0
LINE
  5
BF
100
AcDbEntity
  8
0
 62
     7
100
AcDbLine
 10
-12.020132
 20
-30.753437
 30
0.0
 11
-12.020132
 21
-0.001654
 31
0.0
  0
LINE
  5
C0
100
AcDbEntity
  8
0
 62
     7
100
AcDbLine
 10
-13.684332
 20
-2.29265
 30
0.0
 11
-13.684332
 21
-0.001654
 31
0.0
  0
LINE
  5
C1
100
AcDbEntity
  8
0
 62
     7
100
AcDbLine
 10
-13.684332
 20
-14.300805
 30
0.0
 11
-13.684332
 21
-10.213493
 31
0.0
  0
LINE
  5
C2
100
AcDbEntity
  8
0
 62
     7
100
AcDbLine
 10
-13.684332
 20
-24.132048
 30
0.0
 11
-13.684332
 21
-21.033182
 31
0.0
  0
LINE
  5
C3
100
AcDbEntity
  8
0
 62
     7
100
AcDbLine
 10
-13.684332
 20
-32.003437
 30
0.0
 11
-13.684332
 21
-28.73428
 31
0.0
  0
LINE
  5
C4
100
AcDbEntity
  8
0
 62
     7
100
AcDbLine
 10
-23.696661
 20
-2.29265
 30
0.0
 11
-23.696661
 21
-0.001654
 31
0.0
  0
LINE
  5
C5
100
AcDbEntity
  8
0
 62
     7
100
AcDbLine
 10
-23.696661
 20
-14.300805
 30
0.0
 11
-23.696661
 21
-10.213493
 31
0.0
  0
LINE
  5
C6
100
AcDbEntity
  8
0
 62
     7
100
AcDbLine
 10
-23.696661
 20
-24.132048
 30
0.0
 11
-23.696661
 21
-21.033182
 31
0.0
  0
LINE
  5
C7
100
AcDbEntity
  8
0
 62
     7
100
AcDbLine
 10
-23.696661
 20
-32.003437
 30
0.0
 11
-23.696661
 21
-28.73428
 31
0.0
  0
LINE
  5
C8
100
AcDbEntity
  8
0
 62
     7
100
AcDbLine
 10
-25.360861
 20
-0.001654
 30
0.0
 11
-25.360861
 21
-30.753437
 31
0.0
  0
LINE
  5
C9
100
AcDbEntity
  8
0
 62
     7
100
AcDbLine
 10
-13.684332
 20
-30.279539
 30
0.0
 11
-23.696661
 21
-30.279539
 31
0.0
  0
LINE
  5
CA
100
AcDbEntity
  8
0
 62
     7
100
AcDbLine
 10
-13.684332
 20
-28.73428
 30
0.0
 11
-23.696661
 21
-28.73428
 31
0.0
  0
LINE
  5
CB
100
AcDbEntity
  8
0
 62
     7
100
AcDbLine
 10
-13.684332
 20
-24.132048
 30
0.0
 11
-23.696661
 21
-24.132048
 31
0.0
  0
LINE
  5
CC
100
AcDbEntity
  8
0
 62
     7
100
AcDbLine
 10
-13.684332
 20
-21.033182
 30
0.0
 11
-23.696661
 21
-21.033182
 31
0.0
  0
LINE
  5
CD
100
AcDbEntity
  8
0
 62
     7
100
AcDbLine
 10
-13.684332
 20
-14.300805
 30
0.0
 11
-23.696661
 21
-14.300805
 31
0.0
  0
LINE
  5
CE
100
AcDbEntity
  8
0
 62
     7
100
AcDbLine
 10
-13.684332
 20
-10.213493
 30
0.0
 11
-23.696661
 21
-10.213493
 31
0.0
  0
LINE
  5
CF
100
AcDbEntity
  8
0
 62
     7
100
AcDbLine
 10
-13.684332
 20
-2.29265
 30
0.0
 11
-23.696661
 21
-2.29265
 31
0.0
  0
ARC
  5
D0
100
AcDbEntity
  8
0
 62
     7
100
AcDbCircle
 10
-21.869604
 20
-26.433165
 30
0.0
 40
2.938242
100
AcDbArc
 50
128.449139
 51
231.550878
  0
ARC
  5
D1
100
AcDbEntity
  8
0
 62
     7
100
AcDbCircle
 10
-19.708479
 20
-17.666994
 30
0.0
 40
5.218892
100
AcDbArc
 50
139.834258
 51
220.165732
  0
ARC
  5
D2
100
AcDbEntity
  8
0
 62
     7
100
AcDbCircle
 10
-20.172972
 20
-6.253072
 30
0.0
 40
5.301068
100
AcDbArc
 50
131.660338
 51
228.339713
  0
ARC
  5
D3
100
AcDbEntity
  8
0
 62
     7
100
AcDbCircle
 10
-15.51139
 20
-26.433165
 30
0.0
 40
2.938242
100
AcDbArc
 50
308.44913
 51
411.55087
  0
ARC
  5
D4
100
AcDbEntity
  8
0
 62
     7
100
AcDbCircle
 10
-17.672514
 20
-17.666994
 30
0.0
 40
5.218892
100
AcDbArc
 50
319.834263
 51
400.165737
  0
ARC
  5
D5
100
AcDbEntity
  8
0
 62
     7
100
AcDbCircle
 10
-17.208021
 20
-6.253072
 30
0.0
 40
5.301068
100
AcDbArc
 50
311.660302
 51
408.339677
  0
LINE
  5
D6
100
AcDbEntity
  8
0
 62
     7
100
AcDbLine
 10
4.956751
 20
32.00013
 30
0.0
 11
4.958818
 21
-32.000561
 31
0.0
  0
LINE
  5
D8
100
AcDbEntity
  8
0
  6
ecw_4
 62
     1
100
AcDbLine
 10
-56.35614
 20
-0.00733
 30
0.0
 11
162.399673
 21
-0.001565
 31
0.0
  0
LINE
  5
D9
100
AcDbEntity
  8
0
 62
     7
100
AcDbLine
 10
-39.619278
 20
28.998152
 30
0.0
 11
-38.619278
 21
29.998184
 31
0.0
  0
LINE
  5
DA
100
AcDbEntity
  8
0
 62
     7
100
AcDbLine
 10
-45.619503
 20
27.997957
 30
0.0
 11
-39.619278
 21
27.998152
 31
0.0
  0
LINE
  5
DB
100
AcDbEntity
  8
0
 62
     7
100
AcDbLine
 10
-45.619503
 20
21.997957
 30
0.0
 11
-39.619278
 21
21.998152
 31
0.0
  0
LINE
  5
DC
100
AcDbEntity
  8
0
  6
ecw_4
 62
     1
100
AcDbLine
 10
-41.039246
 20
24.998106
 30
0.0
 11
-32.184174
 21
24.998392
 31
0.0
  0
LINE
  5
DD
100
AcDbEntity
  8
0
 62
     7
100
AcDbLine
 10
-38.619278
 20
29.998184
 30
0.0
 11
-34.619278
 21
29.998314
 31
0.0
  0
LINE
  5
DE
100
AcDbEntity
  8
0
 62
     7
100
AcDbLine
 10
-34.619278
 20
29.998314
 30
0.0
 11
-33.619278
 21
28.998346
 31
0.0
  0
LINE
  5
DF
100
AcDbEntity
  8
0
 62
     7
100
AcDbLine
 10
-39.619278
 20
28.998152
 30
0.0
 11
-39.619278
 21
15.248152
 31
0.0
  0
LINE
  5
E0
100
AcDbEntity
  8
0
 62
     7
100
AcDbLine
 10
-33.619278
 20
28.998346
 30
0.0
 11
-33.619278
 21
15.248345
 31
0.0
  0
LINE
  5
E1
100
AcDbEntity
  8
0
 62
     7
100
AcDbLine
 10
-39.619278
 20
15.248152
 30
0.0
 11
-39.619278
 21
-0.001848
 31
0.0
  0
LINE
  5
E2
100
AcDbEntity
  8
0
 62
     7
100
AcDbLine
 10
-39.617401
 20
-29.001848
 30
0.0
 11
-38.61734
 21
-30.001816
 31
0.0
  0
LINE
  5
E3
100
AcDbEntity
  8
0
  6
ecw_4
 62
     1
100
AcDbLine
 10
-41.037628
 20
-25.001894
 30
0.0
 11
-32.182556
 21
-25.001608
 31
0.0
  0
LINE
  5
E4
100
AcDbEntity
  8
0
 62
     7
100
AcDbLine
 10
-38.61734
 20
-30.001816
 30
0.0
 11
-34.61734
 21
-30.001686
 31
0.0
  0
LINE
  5
E5
100
AcDbEntity
  8
0
 62
     7
100
AcDbLine
 10
-34.61734
 20
-30.001686
 30
0.0
 11
-33.617401
 21
-29.001656
 31
0.0
  0
LINE
  5
E6
100
AcDbEntity
  8
0
 62
     7
100
AcDbLine
 10
-39.617401
 20
-29.001848
 30
0.0
 11
-39.618294
 21
-15.251847
 31
0.0
  0
LINE
  5
E7
100
AcDbEntity
  8
0
 62
     7
100
AcDbLine
 10
-33.617401
 20
-29.001656
 30
0.0
 11
-33.618294
 21
-15.251654
 31
0.0
  0
LINE
  5
E8
100
AcDbEntity
  8
0
 62
     7
100
AcDbLine
 10
-39.618294
 20
-15.251847
 30
0.0
 11
-39.619278
 21
-0.001849
 31
0.0
  0
LINE
  5
E9
100
AcDbEntity
  8
0
 62
     7
100
AcDbLine
 10
-39.620258
 20
15.003263
 30
0.0
 11
-40.619221
 21
15.003263
 31
0.0
  0
LINE
  5
EA
100
AcDbEntity
  8
0
 62
     7
100
AcDbLine
 10
-41.619263
 20
14.003264
 30
0.0
 11
-40.619221
 21
15.003263
 31
0.0
  0
LINE
  5
EB
100
AcDbEntity
  8
0
 62
     7
100
AcDbLine
 10
-41.620399
 20
-14.006702
 30
0.0
 11
-41.619263
 21
14.003264
 31
0.0
  0
LINE
  5
EC
100
AcDbEntity
  8
0
 62
     7
100
AcDbLine
 10
-39.618309
 20
-15.006573
 30
0.0
 11
-40.620441
 21
-15.006638
 31
0.0
  0
LINE
  5
ED
100
AcDbEntity
  8
0
 62
     7
100
AcDbLine
 10
-41.620399
 20
-14.006701
 30
0.0
 11
-40.620441
 21
-15.006638
 31
0.0
  0
LINE
  5
EE
100
AcDbEntity
  8
0
 62
     7
100
AcDbLine
 10
-51.619762
 20
29.998106
 30
0.0
 11
-51.619438
 21
19.998106
 31
0.0
  0
LINE
  5
EF
100
AcDbEntity
  8
0
 62
     7
100
AcDbLine
 10
-45.619503
 20
21.997957
 30
0.0
 11
-45.619438
 21
19.998106
 31
0.0
  0
LINE
  5
F0
100
AcDbEntity
  8
0
 62
     7
100
AcDbLine
 10
-33.619278
 20
15.003264
 30
0.0
 11
-33.618313
 21
-15.006186
 31
0.0
  0
LINE
  5
F1
100
AcDbEntity
  8
0
 62
     7
100
AcDbLine
 10
-33.619278
 20
15.003264
 30
0.0
 11
-31.619278
 21
15.003263
 31
0.0
  0
LINE
  5
F2
100
AcDbEntity
  8
0
 62
     7
100
AcDbLine
 10
-33.618313
 20
-15.006186
 30
0.0
 11
-31.618313
 21
-15.006057
 31
0.0
  0
LINE
  5
F3
100
AcDbEntity
  8
0
 62
     7
100
AcDbLine
 10
-45.619503
 20
29.998106
 30
0.0
 11
-51.619762
 21
29.998106
 31
0.0
  0
LINE
  5
F4
100
AcDbEntity
  8
0
 62
     7
100
AcDbLine
 10
-45.619438
 20
19.998106
 30
0.0
 11
-51.619438
 21
19.998106
 31
0.0
  0
LINE
  5
F5
100
AcDbEntity
  8
0
  6
ecw_4
 62
     1
100
AcDbLine
 10
-41.039246
 20
24.998106
 30
0.0
 11
-55.458202
 21
24.998106
 31
0.0
  0
LINE
  5
F6
100
AcDbEntity
  8
0
 62
     7
100
AcDbLine
 10
-45.619503
 20
27.997957
 30
0.0
 11
-45.619503
 21
29.998106
 31
0.0
  0
LINE
  5
F7
100
AcDbEntity
  8
0
 62
     7
100
AcDbLine
 10
-45.619503
 20
21.997957
 30
0.0
 11
-45.619503
 21
27.997957
 31
0.0
  0
LINE
  5
F8
100
AcDbEntity
  8
0
 62
     7
100
AcDbLine
 10
-45.61874
 20
-9.501848
 30
0.0
 11
-41.620216
 21
-9.501719
 31
0.0
  0
LINE
  5
F9
100
AcDbEntity
  8
0
 62
     7
100
AcDbLine
 10
-45.61874
 20
-15.501848
 30
0.0
 11
-39.618515
 21
-15.501654
 31
0.0
  0
LINE
  5
FA
100
AcDbEntity
  8
0
 62
     7
100
AcDbLine
 10
-51.618999
 20
-7.501699
 30
0.0
 11
-51.618675
 21
-17.501699
 31
0.0
  0
LINE
  5
FB
100
AcDbEntity
  8
0
 62
     7
100
AcDbLine
 10
-45.61874
 20
-15.501848
 30
0.0
 11
-45.618675
 21
-17.501699
 31
0.0
  0
LINE
  5
FC
100
AcDbEntity
  8
0
 62
     7
100
AcDbLine
 10
-45.61874
 20
-7.501699
 30
0.0
 11
-51.618999
 21
-7.501699
 31
0.0
  0
LINE
  5
FD
100
AcDbEntity
  8
0
 62
     7
100
AcDbLine
 10
-45.618675
 20
-17.501699
 30
0.0
 11
-51.618675
 21
-17.501699
 31
0.0
  0
LINE
  5
FE
100
AcDbEntity
  8
0
  6
ecw_4
 62
     7
100
AcDbLine
 10
-41.038483
 20
-12.501699
 30
0.0
 11
-55.457439
 21
-12.501699
 31
0.0
  0
LINE
  5
FF
100
AcDbEntity
  8
0
 62
     7
100
AcDbLine
 10
-45.61874
 20
-9.501848
 30
0.0
 11
-45.61874
 21
-7.501699
 31
0.0
  0
LINE
  5
100
100
AcDbEntity
  8
0
 62
     7
100
AcDbLine
 10
-45.61874
 20
-15.501848
 30
0.0
 11
-45.61874
 21
-9.501848
 31
0.0
  0
LINE
  5
101
100
AcDbEntity
  8
0
 62
     1
100
AcDbLine
 10
-31.619278
 20
33.960945
 30
0.0
 11
-31.619278
 21
44.732628
 31
0.0
  0
LINE
  5
102
100
AcDbEntity
  8
0
 62
     1
100
AcDbLine
 10
145.825394
 20
29.599756
 30
0.0
 11
145.825394
 21
44.732628
 31
0.0
  0
TEXT
  5
103
100
AcDbEntity
  8
0
 62
     1
100
AcDbText
 10
50.763355
 20
46.1045
 30
0.0
 40
6.0
  1
177
  7
Style5
 72
     1
 11
56.526821
 21
43.704498
 31
0.0
100
AcDbText
 73
     1
  0
LINE
  5
104
100
AcDbEntity
  8
0
 62
     1
100
AcDbLine
 10
-31.619278
 20
44.432629
 30
0.0
 11
145.825394
 21
44.432629
 31
0.0
  0
POLYLINE
  5
105
100
AcDbEntity
  8
0
 62
     1
100
AcDb2dPolyline
 66
     1
 10
0.0
 20
0.0
 30
0.0
 70
     1
  0
VERTEX
  5
106
100
AcDbEntity
  8
0
 62
     1
100
AcDbVertex
100
AcDb2dVertex
 10
-31.619278
 20
44.432629
 30
0.0
  0
VERTEX
  5
107
100
AcDbEntity
  8
0
 62
     1
100
AcDbVertex
100
AcDb2dVertex
 10
-25.619278
 20
45.765968
 30
0.0
  0
VERTEX
  5
108
100
AcDbEntity
  8
0
 62
     1
100
AcDbVertex
100
AcDb2dVertex
 10
-25.619278
 20
43.099289
 30
0.0
  0
VERTEX
  5
109
100
AcDbEntity
  8
0
 62
     1
100
AcDbVertex
100
AcDb2dVertex
 10
-25.619278
 20
43.099289
 30
0.0
  0
SEQEND
  5
10A
100
AcDbEntity
  8
0
  0
POLYLINE
  5
10B
100
AcDbEntity
  8
0
 62
     1
100
AcDb2dPolyline
 66
     1
 10
0.0
 20
0.0
 30
0.0
 70
     1
  0
VERTEX
  5
10C
100
AcDbEntity
  8
0
 62
     1
100
AcDbVertex
100
AcDb2dVertex
 10
145.825394
 20
44.432629
 30
0.0
  0
VERTEX
  5
10D
100
AcDbEntity
  8
0
 62
     1
100
AcDbVertex
100
AcDb2dVertex
 10
139.825394
 20
43.099289
 30
0.0
  0
VERTEX
  5
10E
100
AcDbEntity
  8
0
 62
     1
100
AcDbVertex
100
AcDb2dVertex
 10
139.825394
 20
45.765968
 30
0.0
  0
VERTEX
  5
10F
100
AcDbEntity
  8
0
 62
     1
100
AcDbVertex
100
AcDb2dVertex
 10
139.825394
 20
45.765968
 30
0.0
  0
SEQEND
  5
110
100
AcDbEntity
  8
0
  0
LINE
  5
111
100
AcDbEntity
  8
0
 62
     1
100
AcDbLine
 10
-41.620399
 20
-14.106703
 30
0.0
 11
-41.620399
 21
-59.805573
 31
0.0
  0
LINE
  5
112
100
AcDbEntity
  8
0
 62
     1
100
AcDbLine
 10
145.827301
 20
-29.59367
 30
0.0
 11
145.827301
 21
-59.805573
 31
0.0
  0
TEXT
  5
113
100
AcDbEntity
  8
0
 62
     1
100
AcDbText
 10
57.139957
 20
-57.310883
 30
0.0
 40
6.0
  1
187
  7
Style5
 72
     1
 11
62.903423
 21
-59.710884
 31
0.0
100
AcDbText
 73
     1
  0
LINE
  5
114
100
AcDbEntity
  8
0
 62
     1
100
AcDbLine
 10
-41.620399
 20
-59.505573
 30
0.0
 11
145.827301
 21
-59.505573
 31
0.0
  0
POLYLINE
  5
115
100
AcDbEntity
  8
0
 62
     1
100
AcDb2dPolyline
 66
     1
 10
0.0
 20
0.0
 30
0.0
 70
     1
  0
VERTEX
  5
116
100
AcDbEntity
  8
0
 62
     1
100
AcDbVertex
100
AcDb2dVertex
 10
-41.620399
 20
-59.505573
 30
0.0
  0
VERTEX
  5
117
100
AcDbEntity
  8
0
 62
     1
100
AcDbVertex
100
AcDb2dVertex
 10
-35.620399
 20
-58.172234
 30
0.0
  0
VERTEX
  5
118
100
AcDbEntity
  8
0
 62
     1
100
AcDbVertex
100
AcDb2dVertex
 10
-35.620399
 20
-60.838913
 30
0.0
  0
VERTEX
  5
119
100
AcDbEntity
  8
0
 62
     1
100
AcDbVertex
100
AcDb2dVertex
 10
-35.620399
 20
-60.838913
 30
0.0
  0
SEQEND
  5
11A
100
AcDbEntity
  8
0
  0
POLYLINE
  5
11B
100
AcDbEntity
  8
0
 62
     1
100
AcDb2dPolyline
 66
     1
 10
0.0
 20
0.0
 30
0.0
 70
     1
  0
VERTEX
  5
11C
100
AcDbEntity
  8
0
 62
     1
100
AcDbVertex
100
AcDb2dVertex
 10
145.827301
 20
-59.505573
 30
0.0
  0
VERTEX
  5
11D
100
AcDbEntity
  8
0
 62
     1
100
AcDbVertex
100
AcDb2dVertex
 10
139.827301
 20
-60.838913
 30
0.0
  0
VERTEX
  5
11E
100
AcDbEntity
  8
0
 62
     1
100
AcDbVertex
100
AcDb2dVertex
 10
139.827301
 20
-58.172234
 30
0.0
  0
VERTEX
  5
11F
100
AcDbEntity
  8
0
 62
     1
100
AcDbVertex
100
AcDb2dVertex
 10
139.827301
 20
-58.172234
 30
0.0
  0
SEQEND
  5
120
100
AcDbEntity
  8
0
  0
LINE
  5
121
100
AcDbEntity
  8
0
 62
     1
100
AcDbLine
 10
145.427399
 20
-31.993702
 30
0.0
 11
165.596893
 21
-31.993702
 31
0.0
  0
LINE
  5
122
100
AcDbEntity
  8
0
 62
     1
100
AcDbLine
 10
145.425323
 20
31.999756
 30
0.0
 11
165.596893
 21
31.999756
 31
0.0
  0
TEXT
  5
123
100
AcDbEntity
  8
0
 62
     1
100
AcDbText
 10
162.896912
 20
-7.436341
 30
0.0
 40
6.0
  1
%%C 64
 50
90.000003
  7
Style5
 72
     1
 11
165.296906
 21
0.003027
 31
0.0
100
AcDbText
 73
     1
  0
LINE
  5
124
100
AcDbEntity
  8
0
 62
     1
100
AcDbLine
 10
165.296906
 20
-31.993702
 30
0.0
 11
165.296906
 21
31.999756
 31
0.0
  0
POLYLINE
  5
125
100
AcDbEntity
  8
0
 62
     1
100
AcDb2dPolyline
 66
     1
 10
0.0
 20
0.0
 30
0.0
 70
     1
  0
VERTEX
  5
126
100
AcDbEntity
  8
0
 62
     1
100
AcDbVertex
100
AcDb2dVertex
 10
165.296906
 20
-31.993702
 30
0.0
  0
VERTEX
  5
127
100
AcDbEntity
  8
0
 62
     1
100
AcDbVertex
100
AcDb2dVertex
 10
163.963562
 20
-25.993702
 30
0.0
  0
VERTEX
  5
128
100
AcDbEntity
  8
0
 62
     1
100
AcDbVertex
100
AcDb2dVertex
 10
166.630249
 20
-25.993702
 30
0.0
  0
VERTEX
  5
129
100
AcDbEntity
  8
0
 62
     1
100
AcDbVertex
100
AcDb2dVertex
 10
166.630249
 20
-25.993702
 30
0.0
  0
SEQEND
  5
12A
100
AcDbEntity
  8
0
  0
POLYLINE
  5
12B
100
AcDbEntity
  8
0
 62
     1
100
AcDb2dPolyline
 66
     1
 10
0.0
 20
0.0
 30
0.0
 70
     1
  0
VERTEX
  5
12C
100
AcDbEntity
  8
0
 62
     1
100
AcDbVertex
100
AcDb2dVertex
 10
165.296906
 20
31.999756
 30
0.0
  0
VERTEX
  5
12D
100
AcDbEntity
  8
0
 62
     1
100
AcDbVertex
100
AcDb2dVertex
 10
166.630249
 20
25.999756
 30
0.0
  0
VERTEX
  5
12E
100
AcDbEntity
  8
0
 62
     1
100
AcDbVertex
100
AcDb2dVertex
 10
163.963562
 20
25.999756
 30
0.0
  0
VERTEX
  5
12F
100
AcDbEntity
  8
0
 62
     1
100
AcDbVertex
100
AcDb2dVertex
 10
163.963562
 20
25.999756
 30
0.0
  0
SEQEND
  5
130
100
AcDbEntity
  8
0
  0
LINE
  5
131
100
AcDbEntity
  8
0
 62
     1
100
AcDbLine
 10
-31.617102
 20
-33.963737
 30
0.0
 11
-31.617102
 21
-46.285156
 31
0.0
  0
LINE
  5
132
100
AcDbEntity
  8
0
 62
     1
100
AcDbLine
 10
5.958754
 20
-31.100494
 30
0.0
 11
5.958754
 21
-46.285156
 31
0.0
  0
TEXT
  5
133
100
AcDbEntity
  8
0
 62
     1
100
AcDbText
 10
-16.671484
 20
-43.585155
 30
0.0
 40
6.0
  1
38
  7
Style5
 72
     1
 11
-12.829174
 21
-45.985157
 31
0.0
100
AcDbText
 73
     1
  0
LINE
  5
134
100
AcDbEntity
  8
0
 62
     1
100
AcDbLine
 10
-31.617102
 20
-45.985157
 30
0.0
 11
5.958754
 21
-45.985157
 31
0.0
  0
POLYLINE
  5
135
100
AcDbEntity
  8
0
 62
     1
100
AcDb2dPolyline
 66
     1
 10
0.0
 20
0.0
 30
0.0
 70
     1
  0
VERTEX
  5
136
100
AcDbEntity
  8
0
 62
     1
100
AcDbVertex
100
AcDb2dVertex
 10
-31.617102
 20
-45.985157
 30
0.0
  0
VERTEX
  5
137
100
AcDbEntity
  8
0
 62
     1
100
AcDbVertex
100
AcDb2dVertex
 10
-25.617102
 20
-44.651817
 30
0.0
  0
VERTEX
  5
138
100
AcDbEntity
  8
0
 62
     1
100
AcDbVertex
100
AcDb2dVertex
 10
-25.617102
 20
-47.318497
 30
0.0
  0
VERTEX
  5
139
100
AcDbEntity
  8
0
 62
     1
100
AcDbVertex
100
AcDb2dVertex
 10
-25.617102
 20
-47.318497
 30
0.0
  0
SEQEND
  5
13A
100
AcDbEntity
  8
0
  0
POLYLINE
  5
13B
100
AcDbEntity
  8
0
 62
     1
100
AcDb2dPolyline
 66
     1
 10
0.0
 20
0.0
 30
0.0
 70
     1
  0
VERTEX
  5
13C
100
AcDbEntity
  8
0
 62
     1
100
AcDbVertex
100
AcDb2dVertex
 10
5.958754
 20
-45.985157
 30
0.0
  0
VERTEX
  5
13D
100
AcDbEntity
  8
0
 62
     1
100
AcDbVertex
100
AcDb2dVertex
 10
-0.041246
 20
-47.318497
 30
0.0
  0
VERTEX
  5
13E
100
AcDbEntity
  8
0
 62
     1
100
AcDbVertex
100
AcDb2dVertex
 10
-0.041247
 20
-44.651817
 30
0.0
  0
VERTEX
  5
13F
100
AcDbEntity
  8
0
 62
     1
100
AcDbVertex
100
AcDb2dVertex
 10
-0.041247
 20
-44.651817
 30
0.0
  0
SEQEND
  5
140
100
AcDbEntity
  8
0
  0
INSERT
  5
141
100
AcDbEntity
  8
0
 62
     1
100
AcDbBlockReference
  2
GC
 10
-51.619762
 20
29.998106
 30
0.0
  0
INSERT
  5
142
100
AcDbEntity
  8
0
 62
     1
100
AcDbBlockReference
  2
GC
 10
-33.619278
 20
34.241135
 30
0.0
  0
LINE
  5
143
100
AcDbEntity
  8
0
 62
     1
100
AcDbLine
 10
-51.619762
 20
30.098106
 30
0.0
 11
-51.619762
 21
44.591793
 31
0.0
  0
LINE
  5
144
100
AcDbEntity
  8
0
 62
     1
100
AcDbLine
 10
-33.619278
 20
34.341133
 30
0.0
 11
-33.619278
 21
44.591793
 31
0.0
  0
TEXT
  5
145
100
AcDbEntity
  8
0
 62
     1
100
AcDbText
 10
-46.461834
 20
46.691795
 30
0.0
 40
6.0
  1
18
  7
Style5
 72
     1
 11
-42.619522
 21
44.291794
 31
0.0
100
AcDbText
 73
     1
  0
LINE
  5
146
100
AcDbEntity
  8
0
 62
     1
100
AcDbLine
 10
-51.619762
 20
44.291794
 30
0.0
 11
-33.619278
 21
44.291794
 31
0.0
  0
POLYLINE
  5
147
100
AcDbEntity
  8
0
 62
     1
100
AcDb2dPolyline
 66
     1
 10
0.0
 20
0.0
 30
0.0
 70
     1
  0
VERTEX
  5
148
100
AcDbEntity
  8
0
 62
     1
100
AcDbVertex
100
AcDb2dVertex
 10
-51.619762
 20
44.291794
 30
0.0
  0
VERTEX
  5
149
100
AcDbEntity
  8
0
 62
     1
100
AcDbVertex
100
AcDb2dVertex
 10
-45.619762
 20
45.625134
 30
0.0
  0
VERTEX
  5
14A
100
AcDbEntity
  8
0
 62
     1
100
AcDbVertex
100
AcDb2dVertex
 10
-45.619762
 20
42.958454
 30
0.0
  0
VERTEX
  5
14B
100
AcDbEntity
  8
0
 62
     1
100
AcDbVertex
100
AcDb2dVertex
 10
-45.619762
 20
42.958454
 30
0.0
  0
SEQEND
  5
14C
100
AcDbEntity
  8
0
  0
POLYLINE
  5
14D
100
AcDbEntity
  8
0
 62
     1
100
AcDb2dPolyline
 66
     1
 10
0.0
 20
0.0
 30
0.0
 70
     1
  0
VERTEX
  5
14E
100
AcDbEntity
  8
0
 62
     1
100
AcDbVertex
100
AcDb2dVertex
 10
-33.619278
 20
44.291794
 30
0.0
  0
VERTEX
  5
14F
100
AcDbEntity
  8
0
 62
     1
100
AcDbVertex
100
AcDb2dVertex
 10
-39.619278
 20
42.958454
 30
0.0
  0
VERTEX
  5
150
100
AcDbEntity
  8
0
 62
     1
100
AcDbVertex
100
AcDb2dVertex
 10
-39.619278
 20
45.625134
 30
0.0
  0
VERTEX
  5
151
100
AcDbEntity
  8
0
 62
     1
100
AcDbVertex
100
AcDb2dVertex
 10
-39.619278
 20
45.625134
 30
0.0
  0
SEQEND
  5
152
100
AcDbEntity
  8
0
  0
ENDSEC
  0
SECTION
  2
OBJECTS
  0
DICTIONARY
  5
19
100
AcDbDictionary
280
     0
281
     1
  3
ACAD_GROUP
350
1A
  3
ACAD_MLINESTYLE
350
1B
  3
ACAD_LAYOUT
350
1E
  3
ACAD_PLOTSETTINGS
350
22
  3
ACAD_PLOTSTYLENAME
350
1F
  3
ACAD_WIPEOUT_VARS
350
23
  0
DICTIONARY
  5
1A
102
{ACAD_REACTORS
330
19
102
}
100
AcDbDictionary
280
     0
281
     1
  0
DICTIONARY
  5
1B
102
{ACAD_REACTORS
330
19
102
}
100
AcDbDictionary
280
     0
281
     1
  3
Standard
350
1C
  0
MLINESTYLE
  5
1C
102
{ACAD_REACTORS
330
1B
102
}
100
AcDbMlineStyle
  2
Standard
 70
     0
  3

 62
     0
 51
90.0
 52
90.0
 71
     2
 49
0.5
 62
   256
  6
BYLAYER
 49
-0.5
 62
   256
  6
BYLAYER
  0
ACDBDICTIONARYWDFLT
  5
1F
102
{ACAD_REACTORS
330
19
102
}
100
AcDbDictionary
281
     1
  3
Normal
350
1D
100
AcDbDictionaryWithDefault
340
1D
  0
ACDBPLACEHOLDER
  5
1D
102
{ACAD_REACTORS
330
1F
102
}
  0
LAYOUT
  5
20
102
{ACAD_REACTORS
330
1E
102
}
100
AcDbPlotSettings
  1

  2

  4

  6

 40
0.0
 41
0.0
 42
0.0
 43
0.0
 44
0.0
 45
0.0
 46
0.0
 47
0.0
 48
0.0
 49
0.0
140
0.0
141
0.0
142
1.0
143
1.0
 70
     0
 72
     0
 73
     0
 74
     0
  7

 75
     0
147
1.0
148
0.0
149
0.0
100
AcDbLayout
  1
Model
 70
     0
 71
     0
 10
0.0
 20
0.0
 11
0.0
 21
0.0
 12
0.0
 22
0.0
 32
0.0
 14
0.0
 24
0.0
 34
0.0
 15
0.0
 25
0.0
 35
0.0
146
0.0
 13
0.0
 23
0.0
 33
0.0
 16
0.0
 26
0.0
 36
0.0
 17
0.0
 27
0.0
 37
0.0
 76
     0
330
A
331
0
345
0
346
0
  0
LAYOUT
  5
21
102
{ACAD_REACTORS
330
1E
102
}
100
AcDbPlotSettings
  1

  2

  4

  6

 40
0.0
 41
0.0
 42
0.0
 43
0.0
 44
0.0
 45
0.0
 46
0.0
 47
0.0
 48
0.0
 49
0.0
140
0.0
141
0.0
142
1.0
143
1.0
 70
     0
 72
     0
 73
     0
 74
     0
  7

 75
     0
147
1.0
148
0.0
149
0.0
100
AcDbLayout
  1
Layout1
 70
     0
 71
     0
 10
0.0
 20
0.0
 11
0.0
 21
0.0
 12
0.0
 22
0.0
 32
0.0
 14
0.0
 24
0.0
 34
0.0
 15
0.0
 25
0.0
 35
0.0
146
0.0
 13
0.0
 23
0.0
 33
0.0
 16
0.0
 26
0.0
 36
0.0
 17
0.0
 27
0.0
 37
0.0
 76
     0
330
B
331
0
345
0
346
0
  0
DICTIONARY
  5
1E
102
{ACAD_REACTORS
330
19
102
}
100
AcDbDictionary
280
     0
281
     1
  3
Layout1
350
21
  3
Model
350
20
  0
DICTIONARY
  5
22
102
{ACAD_REACTORS
330
19
102
}
100
AcDbDictionary
280
     0
281
     1
  0
WIPEOUTVARIABLES
  5
23
100
AcDbWipeoutVariables
 70
     1
  0
ENDSEC
  0
EOF
